ISO-10303-21;
HEADER;
FILE_DESCRIPTION (( 'STEP AP203' ),
    '1' );
FILE_NAME ('QB-CTZQWP-12.7-795-M.STEP',
    '2020-12-24T01:49:37',
    ( '' ),
    ( '' ),
    'SwSTEP 2.0',
    'SolidWorks 2020',
    '' );
FILE_SCHEMA (( 'CONFIG_CONTROL_DESIGN' ));
ENDSEC;

DATA;
#1 = DIRECTION ( 'NONE',  ( 0.000000000000000000, 0.000000000000000000, 1.000000000000000000 ) ) ;
#2 = APPROVAL ( #158, 'UNSPECIFIED' ) ;
#3 = AXIS2_PLACEMENT_3D ( 'NONE', #181, #184, #280 ) ;
#4 = LINE ( 'NONE', #122, #124 ) ;
#5 = PLANE ( 'NONE',  #54 ) ;
#6 = PERSON_AND_ORGANIZATION ( #176, #35 ) ;
#7 = CALENDAR_DATE ( 2020, 24, 12 ) ;
#8 = EDGE_LOOP ( 'NONE', ( #314, #133, #195, #270 ) ) ;
#9 = APPLICATION_PROTOCOL_DEFINITION ( 'international standard', 'config_control_design', 1994, #194 ) ;
#10 = EDGE_LOOP ( 'NONE', ( #251, #219 ) ) ;
#11 = CARTESIAN_POINT ( 'NONE',  ( -1.614212418857619014, 0.000000000000000000, 0.000000000000000000 ) ) ;
#12 = ORIENTED_EDGE ( 'NONE', *, *, #285, .F. ) ;
#13 = CARTESIAN_POINT ( 'NONE',  ( -1.500000000000000444, 6.349999999999999645, 0.000000000000000000 ) ) ;
#14 = VERTEX_POINT ( 'NONE', #162 ) ;
#15 = DIRECTION ( 'NONE',  ( -1.000000000000000000, -0.000000000000000000, -0.000000000000000000 ) ) ;
#16 = DIRECTION ( 'NONE',  ( -1.000000000000000000, -0.000000000000000000, -0.000000000000000000 ) ) ;
#17 = ORIENTED_EDGE ( 'NONE', *, *, #244, .F. ) ;
#18 = AXIS2_PLACEMENT_3D ( 'NONE', #222, #177, #60 ) ;
#19 = DIRECTION ( 'NONE',  ( -1.000000000000000000, -0.000000000000000000, -0.000000000000000000 ) ) ;
#20 = SHAPE_DEFINITION_REPRESENTATION ( #235, #232 ) ;
#21 = CARTESIAN_POINT ( 'NONE',  ( -1.614212418857619014, 7.776507174585692163E-16, -6.349999999999999645 ) ) ;
#22 = CARTESIAN_POINT ( 'NONE',  ( -2.999999999999999556, 0.000000000000000000, 0.000000000000000000 ) ) ;
#23 = DIRECTION ( 'NONE',  ( 0.000000000000000000, 0.000000000000000000, 1.000000000000000000 ) ) ;
#24 = DIRECTION ( 'NONE',  ( 0.000000000000000000, 0.000000000000000000, 1.000000000000000000 ) ) ;
#25 = ADVANCED_FACE ( 'NONE', ( #135 ), #31, .F. ) ;
#26 = PERSON_AND_ORGANIZATION_ROLE ( 'design_supplier' ) ;
#27 = APPROVAL_ROLE ( '' ) ;
#28 = APPROVAL_PERSON_ORGANIZATION ( #178, #300, #146 ) ;
#29 = ORIENTED_EDGE ( 'NONE', *, *, #285, .T. ) ;
#30 = CYLINDRICAL_SURFACE ( 'NONE', #143, 6.349999999999999645 ) ;
#31 = CYLINDRICAL_SURFACE ( 'NONE', #171, 6.349999999999999645 ) ;
#32 = FACE_OUTER_BOUND ( 'NONE', #310, .T. ) ;
#33 = DIRECTION ( 'NONE',  ( -1.000000000000000000, -0.000000000000000000, -0.000000000000000000 ) ) ;
#34 = VECTOR ( 'NONE', #334, 1000.000000000000000 ) ;
#35 = ORGANIZATION ( 'UNSPECIFIED', 'UNSPECIFIED', '' ) ;
#36 = DIRECTION ( 'NONE',  ( 0.000000000000000000, 0.000000000000000000, -1.000000000000000000 ) ) ;
#37 = CC_DESIGN_DATE_AND_TIME_ASSIGNMENT ( #311, #243, ( #116 ) ) ;
#38 = CARTESIAN_POINT ( 'NONE',  ( 1.500000000000000888, 0.000000000000000000, 6.349999999999999645 ) ) ;
#39 = APPROVAL_STATUS ( 'not_yet_approved' ) ;
#40 = CC_DESIGN_DATE_AND_TIME_ASSIGNMENT ( #104, #210, ( #223 ) ) ;
#41 = DIRECTION ( 'NONE',  ( 0.000000000000000000, 0.000000000000000000, 1.000000000000000000 ) ) ;
#42 = DIRECTION ( 'NONE',  ( -0.000000000000000000, 0.000000000000000000, 1.000000000000000000 ) ) ;
#43 = AXIS2_PLACEMENT_3D ( 'NONE', #47, #154, #24 ) ;
#44 = MECHANICAL_CONTEXT ( 'NONE', #260, 'mechanical' ) ;
#45 = DIRECTION ( 'NONE',  ( 0.000000000000000000, 0.000000000000000000, 1.000000000000000000 ) ) ;
#46 = DIRECTION ( 'NONE',  ( -1.000000000000000000, -0.000000000000000000, -0.000000000000000000 ) ) ;
#47 = CARTESIAN_POINT ( 'NONE',  ( 3.000000000000000888, 0.000000000000000000, 0.000000000000000000 ) ) ;
#48 = PERSON_AND_ORGANIZATION ( #176, #35 ) ;
#49 = DATE_AND_TIME ( #241, #294 ) ;
#50 = CIRCLE ( 'NONE', #161, 12.69999999999999929 ) ;
#51 = CC_DESIGN_PERSON_AND_ORGANIZATION_ASSIGNMENT ( #160, #266, ( #116 ) ) ;
#52 = EDGE_CURVE ( 'NONE', #112, #249, #106, .T. ) ;
#53 = VERTEX_POINT ( 'NONE', #94 ) ;
#54 = AXIS2_PLACEMENT_3D ( 'NONE', #307, #283, #188 ) ;
#55 = AXIS2_PLACEMENT_3D ( 'NONE', #83, #16, #179 ) ;
#56 = DIRECTION ( 'NONE',  ( -1.000000000000000000, -0.000000000000000000, -0.000000000000000000 ) ) ;
#57 = EDGE_LOOP ( 'NONE', ( #253, #198 ) ) ;
#58 = CARTESIAN_POINT ( 'NONE',  ( -1.614212418857619014, 0.000000000000000000, 6.349999999999999645 ) ) ;
#59 = VERTEX_POINT ( 'NONE', #262 ) ;
#60 = DIRECTION ( 'NONE',  ( 0.000000000000000000, 0.000000000000000000, 1.000000000000000000 ) ) ;
#61 =( LENGTH_UNIT ( ) NAMED_UNIT ( * ) SI_UNIT ( .MILLI., .METRE. ) );
#62 = ORIENTED_EDGE ( 'NONE', *, *, #244, .T. ) ;
#63 = LINE ( 'NONE', #114, #316 ) ;
#64 = AXIS2_PLACEMENT_3D ( 'NONE', #281, #149, #45 ) ;
#65 = CARTESIAN_POINT ( 'NONE',  ( 3.000000000000000888, 7.776507174585692163E-16, -6.349999999999999645 ) ) ;
#66 = APPROVAL_DATE_TIME ( #258, #300 ) ;
#67 = CARTESIAN_POINT ( 'NONE',  ( -1.614212418857619014, 0.000000000000000000, 0.000000000000000000 ) ) ;
#68 = FACE_BOUND ( 'NONE', #268, .T. ) ;
#69 = MANIFOLD_SOLID_BREP ( 'Ðý×', #189 ) ;
#70 = CARTESIAN_POINT ( 'NONE',  ( -1.500000000000000444, 7.776507174585692163E-16, -6.349999999999999645 ) ) ;
#71 = DIRECTION ( 'NONE',  ( -1.000000000000000000, 0.000000000000000000, -0.000000000000000000 ) ) ;
#72 = CARTESIAN_POINT ( 'NONE',  ( 3.000000000000000888, 0.000000000000000000, 6.349999999999999645 ) ) ;
#73 = VERTEX_POINT ( 'NONE', #120 ) ;
#74 = PERSON_AND_ORGANIZATION ( #176, #35 ) ;
#75 = ORIENTED_EDGE ( 'NONE', *, *, #147, .T. ) ;
#76 = COORDINATED_UNIVERSAL_TIME_OFFSET ( 8, 0, .AHEAD. ) ;
#77 = ADVANCED_FACE ( 'NONE', ( #98 ), #306, .T. ) ;
#78 = CC_DESIGN_APPROVAL ( #300, ( #223 ) ) ;
#79 = ORIENTED_EDGE ( 'NONE', *, *, #325, .T. ) ;
#80 = DESIGN_CONTEXT ( 'detailed design', #194, 'design' ) ;
#81 = EDGE_CURVE ( 'NONE', #295, #298, #102, .T. ) ;
#82 = ORIENTED_EDGE ( 'NONE', *, *, #299, .F. ) ;
#83 = CARTESIAN_POINT ( 'NONE',  ( -2.999999999999999556, 0.000000000000000000, 0.000000000000000000 ) ) ;
#84 = EDGE_LOOP ( 'NONE', ( #115, #289, #221, #292 ) ) ;
#85 = DIRECTION ( 'NONE',  ( -1.000000000000000000, -0.000000000000000000, -0.000000000000000000 ) ) ;
#86 = LOCAL_TIME ( 9, 49, 37.00000000000000000, #265 ) ;
#87 = DIRECTION ( 'NONE',  ( 0.000000000000000000, 0.000000000000000000, 1.000000000000000000 ) ) ;
#88 = PRODUCT ( 'QB-CTZQWP-12.7-795-M', 'QB-CTZQWP-12.7-795-M', '', ( #44 ) ) ;
#89 = EDGE_LOOP ( 'NONE', ( #317, #29, #17, #225 ) ) ;
#90 = DIRECTION ( 'NONE',  ( 0.000000000000000000, 0.000000000000000000, 1.000000000000000000 ) ) ;
#91 = CARTESIAN_POINT ( 'NONE',  ( 3.000000000000000888, 0.000000000000000000, 0.000000000000000000 ) ) ;
#92 = CIRCLE ( 'NONE', #288, 12.69999999999999929 ) ;
#93 = CYLINDRICAL_SURFACE ( 'NONE', #296, 12.69999999999999929 ) ;
#94 = CARTESIAN_POINT ( 'NONE',  ( -3.000000000000000000, 0.000000000000000000, 12.69999999999999929 ) ) ;
#95 = CIRCLE ( 'NONE', #275, 6.349999999999999645 ) ;
#96 = FACE_BOUND ( 'NONE', #170, .T. ) ;
#97 = AXIS2_PLACEMENT_3D ( 'NONE', #11, #329, #327 ) ;
#98 = FACE_OUTER_BOUND ( 'NONE', #89, .T. ) ;
#99 = EDGE_CURVE ( 'NONE', #14, #109, #246, .T. ) ;
#100 = ADVANCED_FACE ( 'NONE', ( #96, #205 ), #5, .F. ) ;
#101 = EDGE_LOOP ( 'NONE', ( #62, #216 ) ) ;
#102 = CIRCLE ( 'NONE', #113, 12.69999999999999929 ) ;
#103 = CALENDAR_DATE ( 2020, 24, 12 ) ;
#104 = DATE_AND_TIME ( #7, #156 ) ;
#105 = DATE_AND_TIME ( #131, #86 ) ;
#106 = CIRCLE ( 'NONE', #43, 6.349999999999999645 ) ;
#107 = ORIENTED_EDGE ( 'NONE', *, *, #128, .F. ) ;
#108 = ADVANCED_FACE ( 'NONE', ( #121, #68 ), #187, .F. ) ;
#109 = VERTEX_POINT ( 'NONE', #182 ) ;
#110 = ORIENTED_EDGE ( 'NONE', *, *, #248, .F. ) ;
#111 = DIRECTION ( 'NONE',  ( 0.000000000000000000, 0.000000000000000000, -1.000000000000000000 ) ) ;
#112 = VERTEX_POINT ( 'NONE', #72 ) ;
#113 = AXIS2_PLACEMENT_3D ( 'NONE', #305, #237, #1 ) ;
#114 = CARTESIAN_POINT ( 'NONE',  ( -1.614212418857619014, 0.000000000000000000, 12.69999999999999929 ) ) ;
#115 = ORIENTED_EDGE ( 'NONE', *, *, #267, .F. ) ;
#116 = PRODUCT_DEFINITION ( 'UNKNOWN', '', #282, #80 ) ;
#117 = APPLICATION_PROTOCOL_DEFINITION ( 'international standard', 'config_control_design', 1994, #260 ) ;
#118 = COORDINATED_UNIVERSAL_TIME_OFFSET ( 8, 0, .AHEAD. ) ;
#119 = ADVANCED_FACE ( 'NONE', ( #206 ), #93, .T. ) ;
#120 = CARTESIAN_POINT ( 'NONE',  ( -3.000000000000000000, 1.555301434917138433E-15, -12.69999999999999929 ) ) ;
#121 = FACE_OUTER_BOUND ( 'NONE', #10, .T. ) ;
#122 = CARTESIAN_POINT ( 'NONE',  ( -1.614212418857619014, 1.555301434917138433E-15, -12.69999999999999929 ) ) ;
#123 = CARTESIAN_POINT ( 'NONE',  ( -1.614212418857619014, 0.000000000000000000, 0.000000000000000000 ) ) ;
#124 = VECTOR ( 'NONE', #126, 1000.000000000000000 ) ;
#125 = AXIS2_PLACEMENT_3D ( 'NONE', #165, #277, #90 ) ;
#126 = DIRECTION ( 'NONE',  ( -1.000000000000000000, -0.000000000000000000, -0.000000000000000000 ) ) ;
#127 = ADVANCED_FACE ( 'NONE', ( #308 ), #286, .F. ) ;
#128 = EDGE_CURVE ( 'NONE', #73, #53, #315, .T. ) ;
#129 = PERSON_AND_ORGANIZATION_ROLE ( 'classification_officer' ) ;
#130 = AXIS2_PLACEMENT_3D ( 'NONE', #151, #256, #36 ) ;
#131 = CALENDAR_DATE ( 2020, 24, 12 ) ;
#132 = CC_DESIGN_APPROVAL ( #2, ( #282 ) ) ;
#133 = ORIENTED_EDGE ( 'NONE', *, *, #134, .T. ) ;
#134 = EDGE_CURVE ( 'NONE', #272, #14, #259, .T. ) ;
#135 = FACE_OUTER_BOUND ( 'NONE', #137, .T. ) ;
#136 = PLANE ( 'NONE',  #174 ) ;
#137 = EDGE_LOOP ( 'NONE', ( #167, #213, #322, #110 ) ) ;
#138 = CYLINDRICAL_SURFACE ( 'NONE', #273, 6.349999999999999645 ) ;
#139 = EDGE_CURVE ( 'NONE', #301, #272, #148, .T. ) ;
#140 = ORIENTED_EDGE ( 'NONE', *, *, #175, .T. ) ;
#141 = AXIS2_PLACEMENT_3D ( 'NONE', #333, #71, #234 ) ;
#142 = DIRECTION ( 'NONE',  ( -1.000000000000000000, -0.000000000000000000, -0.000000000000000000 ) ) ;
#143 = AXIS2_PLACEMENT_3D ( 'NONE', #330, #33, #274 ) ;
#144 = APPROVAL_PERSON_ORGANIZATION ( #48, #2, #27 ) ;
#145 = DIRECTION ( 'NONE',  ( 1.000000000000000000, 0.000000000000000000, 0.000000000000000000 ) ) ;
#146 = APPROVAL_ROLE ( '' ) ;
#147 = EDGE_CURVE ( 'NONE', #301, #109, #250, .T. ) ;
#148 = CIRCLE ( 'NONE', #130, 6.349999999999999645 ) ;
#149 = DIRECTION ( 'NONE',  ( -1.000000000000000000, -0.000000000000000000, -0.000000000000000000 ) ) ;
#150 =( GEOMETRIC_REPRESENTATION_CONTEXT ( 3 ) GLOBAL_UNCERTAINTY_ASSIGNED_CONTEXT ( ( #173 ) ) GLOBAL_UNIT_ASSIGNED_CONTEXT ( ( #61, #269, #201 ) ) REPRESENTATION_CONTEXT ( 'NONE', 'WORKASPACE' ) );
#151 = CARTESIAN_POINT ( 'NONE',  ( -1.500000000000000444, 0.000000000000000000, 0.000000000000000000 ) ) ;
#152 = ADVANCED_FACE ( 'NONE', ( #228 ), #30, .F. ) ;
#153 = DIRECTION ( 'NONE',  ( -1.000000000000000000, -0.000000000000000000, -0.000000000000000000 ) ) ;
#154 = DIRECTION ( 'NONE',  ( -1.000000000000000000, -0.000000000000000000, -0.000000000000000000 ) ) ;
#155 = AXIS2_PLACEMENT_3D ( 'NONE', #22, #233, #185 ) ;
#156 = LOCAL_TIME ( 9, 49, 37.00000000000000000, #239 ) ;
#157 = ORIENTED_EDGE ( 'NONE', *, *, #263, .F. ) ;
#158 = APPROVAL_STATUS ( 'not_yet_approved' ) ;
#159 = PERSON_AND_ORGANIZATION_ROLE ( 'creator' ) ;
#160 = PERSON_AND_ORGANIZATION ( #176, #35 ) ;
#161 = AXIS2_PLACEMENT_3D ( 'NONE', #197, #199, #172 ) ;
#162 = CARTESIAN_POINT ( 'NONE',  ( -2.999999999999999556, 7.776507174585692163E-16, -6.349999999999999645 ) ) ;
#163 = LOCAL_TIME ( 9, 49, 37.00000000000000000, #76 ) ;
#164 = ORIENTED_EDGE ( 'NONE', *, *, #134, .F. ) ;
#165 = CARTESIAN_POINT ( 'NONE',  ( 1.500000000000000888, 0.000000000000000000, 0.000000000000000000 ) ) ;
#166 = ADVANCED_FACE ( 'NONE', ( #254 ), #136, .F. ) ;
#167 = ORIENTED_EDGE ( 'NONE', *, *, #325, .F. ) ;
#168 = DIRECTION ( 'NONE',  ( 1.000000000000000000, 0.000000000000000000, 0.000000000000000000 ) ) ;
#169 = CARTESIAN_POINT ( 'NONE',  ( -1.500000000000000444, 0.000000000000000000, 6.349999999999999645 ) ) ;
#170 = EDGE_LOOP ( 'NONE', ( #82, #297 ) ) ;
#171 = AXIS2_PLACEMENT_3D ( 'NONE', #123, #335, #203 ) ;
#172 = DIRECTION ( 'NONE',  ( 0.000000000000000000, 0.000000000000000000, 1.000000000000000000 ) ) ;
#173 = UNCERTAINTY_MEASURE_WITH_UNIT (LENGTH_MEASURE( 1.000000000000000082E-05 ), #61, 'distance_accuracy_value', 'NONE');
#174 = AXIS2_PLACEMENT_3D ( 'NONE', #13, #145, #111 ) ;
#175 = EDGE_CURVE ( 'NONE', #272, #301, #95, .T. ) ;
#176 = PERSON ( 'UNSPECIFIED', 'UNSPECIFIED', 'UNSPECIFIED', ('UNSPECIFIED'), ('UNSPECIFIED'), ('UNSPECIFIED') ) ;
#177 = DIRECTION ( 'NONE',  ( -1.000000000000000000, -0.000000000000000000, -0.000000000000000000 ) ) ;
#178 = PERSON_AND_ORGANIZATION ( #176, #35 ) ;
#179 = DIRECTION ( 'NONE',  ( 0.000000000000000000, 0.000000000000000000, 1.000000000000000000 ) ) ;
#180 = CARTESIAN_POINT ( 'NONE',  ( 1.500000000000000444, 6.349999999999999645, 0.000000000000000000 ) ) ;
#181 = CARTESIAN_POINT ( 'NONE',  ( 0.000000000000000000, 0.000000000000000000, 0.000000000000000000 ) ) ;
#182 = CARTESIAN_POINT ( 'NONE',  ( -2.999999999999999556, 0.000000000000000000, 6.349999999999999645 ) ) ;
#183 = EDGE_CURVE ( 'NONE', #217, #59, #247, .T. ) ;
#184 = DIRECTION ( 'NONE',  ( 0.000000000000000000, 0.000000000000000000, 1.000000000000000000 ) ) ;
#185 = DIRECTION ( 'NONE',  ( 0.000000000000000000, 0.000000000000000000, 1.000000000000000000 ) ) ;
#186 = EDGE_CURVE ( 'NONE', #295, #53, #63, .T. ) ;
#187 = PLANE ( 'NONE',  #141 ) ;
#188 = DIRECTION ( 'NONE',  ( 0.000000000000000000, 0.000000000000000000, -1.000000000000000000 ) ) ;
#189 = CLOSED_SHELL ( 'NONE', ( #77, #152, #25, #127, #304, #218, #100, #119, #108, #166 ) ) ;
#190 = SECURITY_CLASSIFICATION_LEVEL ( 'unclassified' ) ;
#191 = APPROVAL_STATUS ( 'not_yet_approved' ) ;
#192 = AXIS2_PLACEMENT_3D ( 'NONE', #180, #279, #42 ) ;
#193 = AXIS2_PLACEMENT_3D ( 'NONE', #91, #56, #41 ) ;
#194 = APPLICATION_CONTEXT ( 'configuration controlled 3d designs of mechanical parts and assemblies' ) ;
#195 = ORIENTED_EDGE ( 'NONE', *, *, #99, .T. ) ;
#196 = EDGE_LOOP ( 'NONE', ( #12, #321, #245, #107 ) ) ;
#197 = CARTESIAN_POINT ( 'NONE',  ( -3.000000000000000000, 0.000000000000000000, 0.000000000000000000 ) ) ;
#198 = ORIENTED_EDGE ( 'NONE', *, *, #175, .F. ) ;
#199 = DIRECTION ( 'NONE',  ( -1.000000000000000000, -0.000000000000000000, -0.000000000000000000 ) ) ;
#200 = LINE ( 'NONE', #303, #318 ) ;
#201 =( NAMED_UNIT ( * ) SI_UNIT ( $, .STERADIAN. ) SOLID_ANGLE_UNIT ( ) );
#202 = DIRECTION ( 'NONE',  ( -1.000000000000000000, -0.000000000000000000, -0.000000000000000000 ) ) ;
#203 = DIRECTION ( 'NONE',  ( 0.000000000000000000, 0.000000000000000000, 1.000000000000000000 ) ) ;
#204 = CIRCLE ( 'NONE', #55, 6.349999999999999645 ) ;
#205 = FACE_OUTER_BOUND ( 'NONE', #101, .T. ) ;
#206 = FACE_OUTER_BOUND ( 'NONE', #196, .T. ) ;
#207 = ORIENTED_EDGE ( 'NONE', *, *, #52, .T. ) ;
#208 = ORIENTED_EDGE ( 'NONE', *, *, #183, .F. ) ;
#209 = COORDINATED_UNIVERSAL_TIME_OFFSET ( 8, 0, .AHEAD. ) ;
#210 = DATE_TIME_ROLE ( 'classification_date' ) ;
#211 = APPROVAL_ROLE ( '' ) ;
#212 = EDGE_CURVE ( 'NONE', #298, #295, #92, .T. ) ;
#213 = ORIENTED_EDGE ( 'NONE', *, *, #267, .T. ) ;
#214 = CC_DESIGN_PERSON_AND_ORGANIZATION_ASSIGNMENT ( #291, #129, ( #223 ) ) ;
#215 = VECTOR ( 'NONE', #202, 1000.000000000000000 ) ;
#216 = ORIENTED_EDGE ( 'NONE', *, *, #128, .T. ) ;
#217 = VERTEX_POINT ( 'NONE', #38 ) ;
#218 = ADVANCED_FACE ( 'NONE', ( #32 ), #138, .F. ) ;
#219 = ORIENTED_EDGE ( 'NONE', *, *, #212, .F. ) ;
#220 = DIRECTION ( 'NONE',  ( -1.000000000000000000, -0.000000000000000000, -0.000000000000000000 ) ) ;
#221 = ORIENTED_EDGE ( 'NONE', *, *, #248, .T. ) ;
#222 = CARTESIAN_POINT ( 'NONE',  ( 1.500000000000000888, 0.000000000000000000, 0.000000000000000000 ) ) ;
#223 = SECURITY_CLASSIFICATION ( '', '', #190 ) ;
#224 = FACE_OUTER_BOUND ( 'NONE', #84, .T. ) ;
#225 = ORIENTED_EDGE ( 'NONE', *, *, #186, .F. ) ;
#226 = DIRECTION ( 'NONE',  ( 0.000000000000000000, 0.000000000000000000, 1.000000000000000000 ) ) ;
#227 = CARTESIAN_POINT ( 'NONE',  ( 3.000000000000000000, 1.555301434917138433E-15, -12.69999999999999929 ) ) ;
#228 = FACE_OUTER_BOUND ( 'NONE', #8, .T. ) ;
#229 = CC_DESIGN_PERSON_AND_ORGANIZATION_ASSIGNMENT ( #312, #159, ( #282 ) ) ;
#230 = PRODUCT_RELATED_PRODUCT_CATEGORY ( 'detail', '', ( #88 ) ) ;
#231 = CARTESIAN_POINT ( 'NONE',  ( -1.614212418857619014, 7.776507174585692163E-16, -6.349999999999999645 ) ) ;
#232 = ADVANCED_BREP_SHAPE_REPRESENTATION ( 'QB-CTZQWP-12.7-795-M', ( #69, #3 ), #150 ) ;
#233 = DIRECTION ( 'NONE',  ( -1.000000000000000000, -0.000000000000000000, -0.000000000000000000 ) ) ;
#234 = DIRECTION ( 'NONE',  ( -0.000000000000000000, 0.000000000000000000, 1.000000000000000000 ) ) ;
#235 = PRODUCT_DEFINITION_SHAPE ( 'NONE', 'NONE',  #116 ) ;
#236 = APPROVAL_PERSON_ORGANIZATION ( #290, #319, #211 ) ;
#237 = DIRECTION ( 'NONE',  ( -1.000000000000000000, -0.000000000000000000, -0.000000000000000000 ) ) ;
#238 = AXIS2_PLACEMENT_3D ( 'NONE', #261, #46, #23 ) ;
#239 = COORDINATED_UNIVERSAL_TIME_OFFSET ( 8, 0, .AHEAD. ) ;
#240 = CIRCLE ( 'NONE', #18, 6.349999999999999645 ) ;
#241 = CALENDAR_DATE ( 2020, 24, 12 ) ;
#242 = CC_DESIGN_PERSON_AND_ORGANIZATION_ASSIGNMENT ( #6, #293, ( #88 ) ) ;
#243 = DATE_TIME_ROLE ( 'creation_date' ) ;
#244 = EDGE_CURVE ( 'NONE', #53, #73, #50, .T. ) ;
#245 = ORIENTED_EDGE ( 'NONE', *, *, #186, .T. ) ;
#246 = CIRCLE ( 'NONE', #155, 6.349999999999999645 ) ;
#247 = CIRCLE ( 'NONE', #125, 6.349999999999999645 ) ;
#248 = EDGE_CURVE ( 'NONE', #112, #217, #200, .T. ) ;
#249 = VERTEX_POINT ( 'NONE', #65 ) ;
#250 = LINE ( 'NONE', #58, #323 ) ;
#251 = ORIENTED_EDGE ( 'NONE', *, *, #81, .F. ) ;
#252 = CARTESIAN_POINT ( 'NONE',  ( -1.614212418857619014, 0.000000000000000000, 0.000000000000000000 ) ) ;
#253 = ORIENTED_EDGE ( 'NONE', *, *, #139, .F. ) ;
#254 = FACE_OUTER_BOUND ( 'NONE', #57, .T. ) ;
#255 = CIRCLE ( 'NONE', #193, 6.349999999999999645 ) ;
#256 = DIRECTION ( 'NONE',  ( 1.000000000000000000, 0.000000000000000000, 0.000000000000000000 ) ) ;
#257 = LINE ( 'NONE', #231, #34 ) ;
#258 = DATE_AND_TIME ( #331, #309 ) ;
#259 = LINE ( 'NONE', #21, #215 ) ;
#260 = APPLICATION_CONTEXT ( 'configuration controlled 3d designs of mechanical parts and assemblies' ) ;
#261 = CARTESIAN_POINT ( 'NONE',  ( -1.614212418857619014, 0.000000000000000000, 0.000000000000000000 ) ) ;
#262 = CARTESIAN_POINT ( 'NONE',  ( 1.500000000000000888, 7.776507174585692163E-16, -6.349999999999999645 ) ) ;
#263 = EDGE_CURVE ( 'NONE', #59, #217, #240, .T. ) ;
#264 = APPROVAL_DATE_TIME ( #105, #2 ) ;
#265 = COORDINATED_UNIVERSAL_TIME_OFFSET ( 8, 0, .AHEAD. ) ;
#266 = PERSON_AND_ORGANIZATION_ROLE ( 'creator' ) ;
#267 = EDGE_CURVE ( 'NONE', #249, #59, #257, .T. ) ;
#268 = EDGE_LOOP ( 'NONE', ( #207, #79 ) ) ;
#269 =( NAMED_UNIT ( * ) PLANE_ANGLE_UNIT ( ) SI_UNIT ( $, .RADIAN. ) );
#270 = ORIENTED_EDGE ( 'NONE', *, *, #147, .F. ) ;
#271 = CARTESIAN_POINT ( 'NONE',  ( 3.000000000000000000, 0.000000000000000000, 0.000000000000000000 ) ) ;
#272 = VERTEX_POINT ( 'NONE', #70 ) ;
#273 = AXIS2_PLACEMENT_3D ( 'NONE', #252, #142, #87 ) ;
#274 = DIRECTION ( 'NONE',  ( 0.000000000000000000, 0.000000000000000000, 1.000000000000000000 ) ) ;
#275 = AXIS2_PLACEMENT_3D ( 'NONE', #332, #168, #326 ) ;
#276 = CC_DESIGN_SECURITY_CLASSIFICATION ( #223, ( #282 ) ) ;
#277 = DIRECTION ( 'NONE',  ( -1.000000000000000000, -0.000000000000000000, -0.000000000000000000 ) ) ;
#278 = CYLINDRICAL_SURFACE ( 'NONE', #97, 6.349999999999999645 ) ;
#279 = DIRECTION ( 'NONE',  ( -1.000000000000000000, 0.000000000000000000, -0.000000000000000000 ) ) ;
#280 = DIRECTION ( 'NONE',  ( 1.000000000000000000, 0.000000000000000000, 0.000000000000000000 ) ) ;
#281 = CARTESIAN_POINT ( 'NONE',  ( -3.000000000000000000, 0.000000000000000000, 0.000000000000000000 ) ) ;
#282 = PRODUCT_DEFINITION_FORMATION_WITH_SPECIFIED_SOURCE ( 'ANY', '', #88, .NOT_KNOWN. ) ;
#283 = DIRECTION ( 'NONE',  ( 1.000000000000000000, 0.000000000000000000, 0.000000000000000000 ) ) ;
#284 = DIRECTION ( 'NONE',  ( 0.000000000000000000, 0.000000000000000000, 1.000000000000000000 ) ) ;
#285 = EDGE_CURVE ( 'NONE', #298, #73, #4, .T. ) ;
#286 = PLANE ( 'NONE',  #192 ) ;
#287 = CC_DESIGN_PERSON_AND_ORGANIZATION_ASSIGNMENT ( #74, #26, ( #282 ) ) ;
#288 = AXIS2_PLACEMENT_3D ( 'NONE', #271, #220, #226 ) ;
#289 = ORIENTED_EDGE ( 'NONE', *, *, #52, .F. ) ;
#290 = PERSON_AND_ORGANIZATION ( #176, #35 ) ;
#291 = PERSON_AND_ORGANIZATION ( #176, #35 ) ;
#292 = ORIENTED_EDGE ( 'NONE', *, *, #183, .T. ) ;
#293 = PERSON_AND_ORGANIZATION_ROLE ( 'design_owner' ) ;
#294 = LOCAL_TIME ( 9, 49, 37.00000000000000000, #209 ) ;
#295 = VERTEX_POINT ( 'NONE', #302 ) ;
#296 = AXIS2_PLACEMENT_3D ( 'NONE', #67, #153, #284 ) ;
#297 = ORIENTED_EDGE ( 'NONE', *, *, #99, .F. ) ;
#298 = VERTEX_POINT ( 'NONE', #227 ) ;
#299 = EDGE_CURVE ( 'NONE', #109, #14, #204, .T. ) ;
#300 = APPROVAL ( #39, 'UNSPECIFIED' ) ;
#301 = VERTEX_POINT ( 'NONE', #169 ) ;
#302 = CARTESIAN_POINT ( 'NONE',  ( 3.000000000000000000, 0.000000000000000000, 12.69999999999999929 ) ) ;
#303 = CARTESIAN_POINT ( 'NONE',  ( -1.614212418857619014, 0.000000000000000000, 6.349999999999999645 ) ) ;
#304 = ADVANCED_FACE ( 'NONE', ( #224 ), #278, .F. ) ;
#305 = CARTESIAN_POINT ( 'NONE',  ( 3.000000000000000000, 0.000000000000000000, 0.000000000000000000 ) ) ;
#306 = CYLINDRICAL_SURFACE ( 'NONE', #238, 12.69999999999999929 ) ;
#307 = CARTESIAN_POINT ( 'NONE',  ( -3.000000000000000000, 6.349999999999999645, 0.000000000000000000 ) ) ;
#308 = FACE_OUTER_BOUND ( 'NONE', #328, .T. ) ;
#309 = LOCAL_TIME ( 9, 49, 37.00000000000000000, #118 ) ;
#310 = EDGE_LOOP ( 'NONE', ( #164, #140, #75, #320 ) ) ;
#311 = DATE_AND_TIME ( #103, #163 ) ;
#312 = PERSON_AND_ORGANIZATION ( #176, #35 ) ;
#313 = APPROVAL_DATE_TIME ( #49, #319 ) ;
#314 = ORIENTED_EDGE ( 'NONE', *, *, #139, .T. ) ;
#315 = CIRCLE ( 'NONE', #64, 12.69999999999999929 ) ;
#316 = VECTOR ( 'NONE', #19, 1000.000000000000000 ) ;
#317 = ORIENTED_EDGE ( 'NONE', *, *, #81, .T. ) ;
#318 = VECTOR ( 'NONE', #15, 1000.000000000000000 ) ;
#319 = APPROVAL ( #191, 'UNSPECIFIED' ) ;
#320 = ORIENTED_EDGE ( 'NONE', *, *, #299, .T. ) ;
#321 = ORIENTED_EDGE ( 'NONE', *, *, #212, .T. ) ;
#322 = ORIENTED_EDGE ( 'NONE', *, *, #263, .T. ) ;
#323 = VECTOR ( 'NONE', #85, 1000.000000000000000 ) ;
#324 = CC_DESIGN_APPROVAL ( #319, ( #116 ) ) ;
#325 = EDGE_CURVE ( 'NONE', #249, #112, #255, .T. ) ;
#326 = DIRECTION ( 'NONE',  ( 0.000000000000000000, 0.000000000000000000, -1.000000000000000000 ) ) ;
#327 = DIRECTION ( 'NONE',  ( 0.000000000000000000, 0.000000000000000000, 1.000000000000000000 ) ) ;
#328 = EDGE_LOOP ( 'NONE', ( #208, #157 ) ) ;
#329 = DIRECTION ( 'NONE',  ( -1.000000000000000000, -0.000000000000000000, -0.000000000000000000 ) ) ;
#330 = CARTESIAN_POINT ( 'NONE',  ( -1.614212418857619014, 0.000000000000000000, 0.000000000000000000 ) ) ;
#331 = CALENDAR_DATE ( 2020, 24, 12 ) ;
#332 = CARTESIAN_POINT ( 'NONE',  ( -1.500000000000000444, 0.000000000000000000, 0.000000000000000000 ) ) ;
#333 = CARTESIAN_POINT ( 'NONE',  ( 3.000000000000000000, 12.69999999999999929, 0.000000000000000000 ) ) ;
#334 = DIRECTION ( 'NONE',  ( -1.000000000000000000, -0.000000000000000000, -0.000000000000000000 ) ) ;
#335 = DIRECTION ( 'NONE',  ( -1.000000000000000000, -0.000000000000000000, -0.000000000000000000 ) ) ;
ENDSEC;
END-ISO-10303-21;
